31 ene. 2012

Local 9

Hola de nuevo
Ya tome la costumbre de escribir lunes y martes seguido, así que hoy también haré entrada.

Hoy hablaremos de Local 9, otro grupo español, de origen catalán que merece sitio en este blog con los grandes multinacionales mayormente conocidos:




voy a dejar que se presenten ellos según la nota de prensa que me han mandado:
"En el mes de julio de 2006, dos viejos rockeros, juntaron sus caminos y sus destinos. Walter Alba guitarra solista y Julio JJ a la batería y coros, decidieron explorar nuevos espacios del rock tan abiertos como sus mentes.

Sin dejar de trabajar y siempre bajo la batuta de Walter Alba, la banda se puso manos a la obra para encontrar un bajista que encajara en el proyecto. Tras varios intentos y ya en febrero de 2008, David Marqués lo hizo como un guante, añadiendo a LOCAL 9 la contundencia y creatividad que necesitaba.

En julio de 2011 se sumó  José Luis Galán (guitarra rítimica), aportando y contagiando al resto del grupo de su entusiasmo y dedicación.

En agosto de ese mismo año, se incorporó definitivamente a LOCAL 9, una de las voces más carismáticas y consagradas del rock valenciano, Fernando Broseta, quien venía colaborando con la banda desde el año 2007.

LOCAL 9 se define como una banda de Hard Rock que interpreta sus temas en español. Este estilo, cuenta con numerosos adeptos en el panorama musical y LOCAL 9 lucha día a día por hacerse un hueco entre los grupos de habla inglesa, que tanto atraen al público más joven.

Y éste es uno de sus principales objetivos: animar a la juventud española a que escuchen Hard Rock hecho en “casa” y que LOCAL 9 continúe abanderando esa corriente musical, aportando todo su trabajo y talento en esta difícil empresa.

LOCAL 9 hace un esfuerzo por intentar acercar su música a todos los rincones del planeta, estando muy presente en Internet, tanto con su web www.local9.es como en las diferentes redes sociales Tuenti, Facebook, Twitter o Myspace.

En enero de 2011, LOCAL 9 publicó su primer trabajo discográfico “Pacto de Diablos”. Este disco auto producido recoge una muestra de los diferentes estilos de la banda, siempre fiel al mejor hard rock español.

Todo lo anterior no tendría sentido si LOCAL 9 no trabajara duro en cada ensayo,  para componer temas dinámicos, divertidos, pegadizos y llenos de energía, que hace que su público vibre en cada concierto. Como fruto, LOCAL 9 viene recogiendo excelentes críticas tanto de aquellos que se acercan a sus conciertos como de figuras consagradas del periodismo especializado."

bueno, pues he aquí unas de sus mejores canciones:






30 ene. 2012

Un poco de todo

Buenos días por la mañana!
En el día de hoy, Lunes 30 de enero,...mierda, solo queda 1 mes de clase menos carnaval y... perdón, que me voy del tema, hoy quiero compartir con vosotros el talento de unos grupos pequeños, en fase de desarrollo por así decirlo que aun no tienen mucha fama pero si un gran talento.
Empecemos por hacer la pelota a uno de mis subordinados por Dark Legacy, un grupo de Lorca, que esta compuesto prácticamente por Pablito y su ordenador un grupo de chavales que tocan teclado, guitarra y batería por diversión, pero ojala que esta peloteo oportunidad y publicidad les lleve lejos:

Dark Legacy - Decadencia
Dark Lecagy - Raíces

El siguiente grupo que quiero pelotear promocionar es el de Andrömeda, un grupo segoviano y como viven aqui, me caen bien y son buena gente y les debo ir a sus conciertos pero casi nunca puedo, pues se lo compenso aqui:

Blog de Andrömdeda Metalrock


Seguimos con un grupo más conocido como es Lujuria, también segoviano, aunque yo no le conzca tanto, se merece un hueco en mi blog :D



Y por último pero no menos importante, os presento a un grupo buenísimo, liderado por uno de mis mejores amigos y con un brillante futuro. Su nombre es: Rift Rue. Es un grupo segoviano de Altern Metal, si es que se puede definir en un estilo, pero digamos que la mayoría de sus canciones son versiones de otras y no podemos delimitarlo tanto.
Estas son unas cuantas canciones suyas:

(el logo muy currao XD)



Bueno, pues eso ha sido todo por hoy. Espero veros otro dia con más musica. Paz, amor y metal!

29 ene. 2012

Sonata Árctica (II)

Hola hola, tras haber hecho Juanma una entrada sobre Sonata Arctica, y lo que son para él; os traigo yo mis sentimientos hacia este genial grupo.
Principalmente, Sonata Arctica es la razón por la que empecé a hacer música. Esas melodías en las guitarras, a tiempo con los teclados, doblando las voces por terceras, llevan el power metal más allá y consiguen convertirlo incluso en música clásica. Más escalofríos aún cuando cambiaron su inconfundible estilo a otro más reconocible aún; un progressive power metal.
Empecé a escucharlos cuando tenía doce años, y desde entonces, mi afán por componer ha ido creciendo. Tengo originales los dos últimos discos: Unia y The days of Grays. 
A mi hermano no le convencía el cambio de estilo, yo le criticaba y decía que a mí me encantaba (careciendo un poco de fundamento). Pero años después de comprarme Unia, hace un par de meses, me dio por escuchar las canciones de mitad del disco hasta el final, y, literalmente: Dios.
A continuación os dejo mis canciones preferidas de Sonata Arctica, aunque es difícil decidirse:


Dios, tenéis que escuchar los riffs de guitarra junto a la ''orquesta'' de esa canción. Escalofríos.


Y esto es todo, espero que os haya gustado... ¡Arriba el metal! ;D

27 ene. 2012

Vainilla Ninja: Metal for women

Hoy voy a deleitaros con metal de mujeres, quizás mas desconocido que el que cantan los hombres, pero igual o mejor en algunos casos. Ya cree hace tiempo una entrada acerca de Eyes Set to Kill, pero hay mas grupos con personajes femeninos como Arch Enemy, pero en esta entrada hablaremos de Vainilla Ninja, un grupo que redescubri hace poco escuchando t.a.T.u (otro grupo femenino) . Esta cancion es Blue Tatoo, pero luego un video me llevo a otro y vi unos cuantos muy interesantes:






26 ene. 2012

DragonForce - Through The Fire And Flames Tablatura guitarra

Hoy vamos a ver la tablatura de la canción Through The Fire And Flames de DragonForce:



     S S S S S S S S S S S S S S S S    S S S S S S S S S S S S S S S S  
E||----------------------------------|--6-------------------------------|
B||--------------------------6-------|------8---9---6---8-------6-------|
G||--5---7---8---5---7---8-------7---|----------------------8-------7---|
D||----5---5---5---5---5---5---5---5-|----5---5---5---5---5---5---5---5-|
A||----------------------------------|----------------------------------|
E||----------------------------------|----------------------------------|</span>
 
  S S S S S S S S S S S S S S S S    S S S S S S S S S S S S S S S S  
----------------------------------|--6-------------------------------|
--------------------------6-------|------8---9---6---8-------6-------|
--5---7---8---5---7---8-------7---|----------------------8-------7---|
----5---5---5---5---5---5---5---5-|----5---5---5---5---5---5---5---5-|
----------------------------------|----------------------------------|
----------------------------------|----------------------------------|
 
  S S S S S S S S S S S S S S S S    S S S S S S S S S S S S S S S S  
----------------------------------|--6-------------------------------|
--------------------------6-------|------8---9---6---8-------6-------|
--5---7---8---5---7---8-------7---|----------------------8-------7---|
----5---5---5---5---5---5---5---5-|----5---5---5---5---5---5---5---5-|
----------------------------------|----------------------------------|
----------------------------------|----------------------------------|
 
 
  S S S S S S S S S S S S S S S S    S S S S S S S S S S S S S S S S  
----------------------------------|--6-------------------------------|
--------------------------6-------|------8---9---6---8-------6-------|
--5---7---8---5---7---8-------7---|----------------------8-------7---|
----5---5---5---5---5---5---5---5-|----5---5---5---5---5---5---5---5-|
----------------------------------|----------------------------------|
----------------------------------|----------------------------------|
 
 
  S S S S S S S S S S S S S S S S    S S S S S S S S S S S S S S S S  
----------------------------------|--6-------------------------------|
--------------------------6-------|------8---9---6---8-------6-------|
--5---7---8---5---7---8-------7---|----------------------8-------7---|
----5---5---5---5---5---5---5---5-|----5---5---5---5---5---5---5---5-|
----------------------------------|----------------------------------|
----------------------------------|----------------------------------|
 
 
  S S S S S S S S S S S S S S S S    S S S S S S S S S S S S S S S S  
----------------------------------|--6-------------------------------|
--------------------------6-------|------8---9---6---8-------6-------|
--5---7---8---5---7---8-------7---|----------------------8-------7---|
----5---5---5---5---5---5---5---5-|----5---5---5---5---5---5---5---5-|
----------------------------------|----------------------------------|
----------------------------------|----------------------------------|
 
 
  S S S S S S S S S S S S S S S S    S S S S S S S S S S S S S S S S  
----------------------------------|--6-------------------------------|
--------------------------6-------|------8---9---6---8-------6-------|
--5---7---8---5---7---8-------7---|----------------------8-------7---|
----5---5---5---5---5---5---5---5-|----5---5---5---5---5---5---5---5-|
----------------------------------|----------------------------------|
----------------------------------|----------------------------------|
 
 
  S S S S S S S S S S S S S S S S    S S S S S S  S S S  S  S S S S S S  
----------------------------------|--6----------------6h-8p-6-----------|
--------------------------6-------|----8------------8---------8-------8-|
--5---7---8---5---7---8-------7---|------8-5---5h-8-------------8-5-8---|
----5---5---5---5---5---5---5---5-|----------5--------------------------|
----------------------------------|-------------------------------------|
----------------------------------|-------------------------------------|
 
 
   S  S  S  S S S  S  S  S  S S S  S  S S S  
--11-11-11-11-8-8-11-11-11-11-8-8-11-11-8-8-|
--------------------------------------------|
--------------------------------------------|
--------------------------------------------|
--------------------------------------------|
--------------------------------------------|
 
 
   S  S  S  S S S  S  S  S  S S S  S  S S S  
--11-11-11-11-8-8-11-11-11-11-8-8-11-11-8-8-|
--------------------------------------------|
--------------------------------------------|
--------------------------------------------|
--------------------------------------------|
--------------------------------------------|
 
 
   S  S  S  S  S  S  S  S  S  S  S  S  S  S  S  S  
--15-15-15-15-11-11-15-15-15-15-11-11-15-15-11-11-|
--------------------------------------------------|
--------------------------------------------------|
--------------------------------------------------|
--------------------------------------------------|
--------------------------------------------------|
 
 
   S  S  S  S  S  S  S  S  S  S  S  S  S  S  S  S  
--15-15-15-15-11-11-15-15-15-15-11-11-15-15-11-11-|
--------------------------------------------------|
--------------------------------------------------|
--------------------------------------------------|
--------------------------------------------------|
--------------------------------------------------|
 
 
   S  S  S  S S S  S  S  S  S S S  S  S S S  
--13-13-13-13-8-8-13-13-13-13-8-8-13-13-8-8-|
--------------------------------------------|
--------------------------------------------|
--------------------------------------------|
--------------------------------------------|
--------------------------------------------|
 
 
   S  S  S  S S S  S  S  S  S S S  S  S S S  
--13-13-13-13-8-8-13-13-13-13-8-8-13-13-8-8-|
--------------------------------------------|
--------------------------------------------|
--------------------------------------------|
--------------------------------------------|
--------------------------------------------|
 
 
   S  S  S  S S S  S  S  S  S S S  S  S S S  
--11-11-11-11-8-8-11-11-11-11-8-8-11-11-8-8-|
--------------------------------------------|
--------------------------------------------|
--------------------------------------------|
--------------------------------------------|
--------------------------------------------|
 
 
  S  S  S  S  S  S  S  S   E    E    Q      
--8-10-11-13-10-11-13-15-/11--/13--/15~----|
-------------------------------------------|
-------------------------------------------|
-------------------------------------------|
-------------------------------------------|
-------------------------------------------|
 
 
   S  S  S  S S S  S  S  S  S S S  S  S S S  
--11-11-11-11-8-8-11-11-11-11-8-8-11-11-8-8-|
--------------------------------------------|
--------------------------------------------|
--------------------------------------------|
--------------------------------------------|
--------------------------------------------|
 
 
   S  S  S  S S S  S  S  S  S S S  S  S S S  
--11-11-11-11-8-8-11-11-11-11-8-8-11-11-8-8-|
--------------------------------------------|
--------------------------------------------|
--------------------------------------------|
--------------------------------------------|
--------------------------------------------|
 
 
   S  S  S  S  S  S  S  S  S  S  S  S  S  S  S  S  
--15-15-15-15-11-11-15-15-15-15-11-11-15-15-11-11-|
--------------------------------------------------|
--------------------------------------------------|
--------------------------------------------------|
--------------------------------------------------|
--------------------------------------------------|
 
 
   S  S  S  S  S  S  S  S  S  S  S  S  S  S  S  S  
--15-15-15-15-11-11-15-15-15-15-11-11-15-15-11-11-|
--------------------------------------------------|
--------------------------------------------------|
--------------------------------------------------|
--------------------------------------------------|
--------------------------------------------------|
 
 
   S  S  S  S S S  S  S  S  S S S  S  S S S  
--13-13-13-13-8-8-13-13-13-13-8-8-13-13-8-8-|
--------------------------------------------|
--------------------------------------------|
--------------------------------------------|
--------------------------------------------|
--------------------------------------------|
 
 
   S  S  S  S S S  S  S  S  S S S  S  S S S  
--13-13-13-13-8-8-13-13-13-13-8-8-13-13-8-8-|
--------------------------------------------|
--------------------------------------------|
--------------------------------------------|
--------------------------------------------|
--------------------------------------------|
 
 
                                                -\1                
   S  S S S S S  S S   S  S S S S S  S S        W                  
--11p-8------------8--11p-8------------8-|--&lt;&gt;(16)----------------|
--------9---8-9-11----------9---8-9-11---|------------------------|
----------8-------------------8----------|------------------------|
-----------------------------------------|------------------------|
-----------------------------------------|------------------------|
-----------------------------------------|------------------------|
 
 
  Q    H        Q       W                   Q    H        Q     
---------------------|-------------------|---------------------|
---------------------|-------------------|---------------------|
--5------------------|-------------------|---------------------|
--5------------------|-------------------|--6------------------|
--3------------------|-------------------|--6------------------|
---------------------|-------------------|--4------------------|
 
 
  W                   Q    H        Q       W                 
-------------------|---------------------|-------------------|
-------------------|---------------------|-------------------|
-------------------|--3------------------|-------------------|
-------------------|--3------------------|-------------------|
-------------------|--1------------------|-------------------|
-------------------|---------------------|-------------------|
 
 
  E.  S E.  S E  Q.        Q    H        Q     
------------------------|---------------------|
------------------------|---------------------|
--3-----3-----3--3------|--5------------------|
--3-----3-----3--3------|--5------------------|
--1-----1-----1--1------|--3------------------|
------------------------|---------------------|
 
 
  E  S S S S S S S S S S S S S S    S S S S S S S S E  E  E  E   
---------------------------------|------------------------------|
---------------------------------|------------------------------|
---------------------------------|------------------------3--5--|
--5------------------------------|------------------5--5--3--5--|
--3--3-3-3-3-3-3-3-3-3-3-3-3-3-3-|--3-3-3-3-3-3-3-3-3--3--------|
---------------------------------|------------------------------|
 
 
  E  S S S S S S S S S S S S S S    S S S S S S S S S S S S S S S S  
---------------------------------|----------------------------------|
---------------------------------|----------------------------------|
---------------------------------|----------------------------------|
---------------------------------|----------------------------------|
--6------------------------------|----------------------------------|
--4--4-4-4-4-4-4-4-4-4-4-4-4-4-4-|--4-4-4-4-4-4-4-4-4-4-4-4-4-4-4-4-|
 
 
  E  S S S S E  H           E  S S S S E  H           E  E  E  E  E  E  E  E   
-------------------------|-------------------------|--------------------------|
-------------------------|-------------------------|--------------------------|
-------------3--L--------|-------------3--L--------|--------------------------|
--3----------3--L--------|--3----------3--L--------|--------5-----------5-----|
--1--1-1-1-1-1--L--------|--1--1-1-1-1-1--L--------|--3--3--3--3--3--3--3--3--|
-------------------------|-------------------------|--------------------------|
 
 
  E  Q    E  E  E  E  E     S S S S S S S S S S S S E  E   
-------------------------|--------------------------------|
-------------------------|--------------------------------|
-----5----3--5-----------|--------------------------------|
-----5----3--5-----------|------------------3-3-----3--5--|
--3-------------3--3--3--|--3-3-3-3-6-6-6-6-----6-6-------|
-------------------------|--------------------------------|
 
 
                      PH                                      
  E  E  E  E  E  E    Q       E  S S S S S S S S S S S S S S  
---------------------------|---------------------------------|
---------------------------|---------------------------------|
--3------------------------|---------------------------------|
-----5--3-----3--5--&lt;&gt;5----|---------------------------------|
-----------6---------------|--6------------------------------|
---------------------------|--4--4-4-4-4-4-4-4-4-4-4-4-4-4-4-|
 
 
  S S S S S S S S S S S S S S S S    E  S S E  E  E  E    Q      
----------------------------------|-----------------------------|
----------------------------------|-----------------------------|
----------------------------------|-----------------------------|
----------------------------------|---------------3-----&lt;&gt;3b----|
----------------------------------|--1--1-1-1--1-----1----------|
--4-4-4-4-4-4-4-4-4-4-4-4-4-4-4-4-|-----------------------------|
 
 
  E  S S E  E    E  E    Q        E  S S S S S S S S S S S S S S  
-------------------------------|---------------------------------|
-------------------------------|---------------------------------|
-------------------------------|---------------------------------|
---------------&lt;&gt;3-----&lt;&gt;3b----|--5------------------------------|
--1--1-1-1--1-------1----------|--3--3-3-3-3-3-3-3-3-3-3-3-3-3-3-|
-------------------------------|---------------------------------|
 
 
  E  E.  S E.  S E.  S E     E  E  E  E  E  E  E  E   
--------------------------|--------------------------|
--------------------------|--9--------8--------6-----|
-----5-----5-----5-----5--|-----5--5-----5--5-----5--|
-----5-----5-----5-----5--|--------------------------|
-----3-----3-----3-----3--|--------------------------|
--------------------------|--------------------------|
 
 
                              T    T    T    T    T    T    T    T    
  E  E  E  E  E  E  E  E      S S  S S  S S  S S  S S  S S  S S  S S  
--------------------------|--11-8-11-8-11-8-11-8-11-8-11-8-11-8-11-8-|
--9--------8--------6-----|------------------------------------------|
-----5--5-----5--5-----5--|------------------------------------------|
--------------------------|------------------------------------------|
--------------------------|------------------------------------------|
--------------------------|------------------------------------------|
 
 
   T    T    T    T    T    T    T    T                               
   S S  S S  S S  S S  S S  S S  S S  S S    E  E  E  E  E  E  E  E   
--11-8-11-8-11-8-11-8-11-8-11-8-11-8-11-8-|--------------------------|
------------------------------------------|--9--------8--------6-----|
------------------------------------------|-----8--8-----8--8-----8--|
------------------------------------------|--------------------------|
------------------------------------------|--------------------------|
------------------------------------------|--------------------------|
 
 
  E  E  E  E  E  E  E  E      W                 
--------------------------|--------------------|
--9--------8--------6-----|--11----------------|
-----8--8-----8--8-----8--|--------------------|
--------------------------|--------------------|
--------------------------|--------------------|
--------------------------|--------------------|
 
 
  E    E    E    E    E    E    E    E     W                 
--8S--10S--11S--13S--15S--16S--18S--23--|-------------------|
----------------------------------------|-------------------|
----------------------------------------|--8----------------|
----------------------------------------|--8----------------|
----------------------------------------|--6----------------|
----------------------------------------|-------------------|
 
 
  W                   W                   S S E  S S E  S S E    Q     
-------------------|-------------------|------------------------------|
-------------------|-------------------|------------------------------|
-------------------|-------------------|------------------------------|
--8----------------|--6----------------|-----------------------&lt;&gt;5----|
--8----------------|--6----------------|--6-6-6--6-6-6--6-6-6---------|
--6----------------|--4----------------|--4-4-4--4-4-4--4-4-4---------|
 
 
  E  E  E  E  E  E  E  E     E  E  E  E  E  E    Q     
--------------------------|---------------------------|
--------------------------|---------------------------|
--------------------------|---------------------------|
--5--------5--------5-----|--3--------3--------&lt;&gt;3----|
--3--3--3--3--3--3--3--3--|--1--1--1--1--1--1---------|
--------------------------|---------------------------|
 
 
  E  S S S S S S S S S S S S S S    S S S S S S S S S S S S S S S S  
---------------------------------|----------------------------------|
---------------------------------|----------------------------------|
---------------------------------|----------------------------------|
---------------------------------|----------------------------------|
--6------------------------------|----------------------------------|
--4--4-4-4-4-4-4-4-4-4-4-4-4-4-4-|--4-4-4-4-4-4-4-4-4-4-4-4-4-4-4-4-|
 
 
  W                   W                   E  E  E  E  E  E  E  E   
-------------------|-------------------|--------------------------|
-------------------|-------------------|--8--------6--------8-----|
--5----------------|-------------------|-----8--8-----8--8-----8--|
--5----------------|--6----------------|--------------------------|
--3----------------|--6----------------|--------------------------|
-------------------|--4----------------|--------------------------|
 
 
   W                   S S S S S S S S S S S S S S S S  
--------------------|----------6-6-8-8---------6-6-8-8-|
--11----------------|--6-6-9-9---------6-6-9-9---------|
--------------------|----------------------------------|
--------------------|----------------------------------|
--------------------|----------------------------------|
--------------------|----------------------------------|
 
 
  S S S S S S S S S S S S S S S S    W                      W                  
----------6-6-8-8---------6-6-8-8-|--6----------------|-----------------------|
--6-6-9-9---------6-6-9-9---------|-------------------|-----------------------|
----------------------------------|-------------------|--&lt;&gt;10b----------------|
----------------------------------|-------------------|-----------------------|
----------------------------------|-------------------|-----------------------|
----------------------------------|-------------------|-----------------------|
 
 
  W                   W                   W                   W                 
-------------------|-------------------|-------------------|-------------------|
-------------------|-------------------|-------------------|-------------------|
-------------------|-------------------|--5----------------|--L----------------|
--6----------------|--L----------------|--5----------------|--L----------------|
--6----------------|--L----------------|--3----------------|--L----------------|
--4----------------|--L----------------|-------------------|-------------------|
 
 
  E  S S S S S S S S S S S S S S    S S S S S S S S S S S S S S S S  
---------------------------------|----------------------------------|
---------------------------------|----------------------------------|
---------------------------------|----------------------------------|
--3------------------------------|----------------------------------|
--1--1-1-1-1-1-1-1-1-1-1-1-1-1-1-|--1-1-1-1-1-1-1-1-1-1-1-1-1-1-1-1-|
---------------------------------|----------------------------------|
 
 
  W                   W                   W                   W                 
-------------------|-------------------|-------------------|-------------------|
-------------------|-------------------|-------------------|-------------------|
-------------------|-------------------|-------------------|-------------------|
--5----------------|--L----------------|--6----------------|--L----------------|
--5----------------|--L----------------|--6----------------|--L----------------|
--3----------------|--L----------------|--4----------------|--L----------------|
 
 
  W                   W                   W                 
-------------------|-------------------|-------------------|
-------------------|-------------------|-------------------|
--5----------------|--L----------------|--3----------------|
--5----------------|--L----------------|--3----------------|
--3----------------|--L----------------|--1----------------|
-------------------|-------------------|-------------------|
 
 
                                                             PM PM         
  Q    H        Q       E  Q    E  E  E  E  E     E  Q    E  E  E    Q     
---------------------|-------------------------|-------------------&lt;&gt;6----|
---------------------|--8--8----6--8--6--------|--8--8-------6--8---------|
--3------------------|-------------------8--5--|----------8---------------|
--3------------------|-------------------------|--------------------------|
--1------------------|-------------------------|--------------------------|
---------------------|-------------------------|--------------------------|
 
 
  E  Q    S S S S S S S S S S    E  E   E     H         E   
----------------------6-6-----|--6--8--10--&lt;&gt;11~--------L--|
--8--8----6-6-8-8-9-9-----8-8-|----------------------------|
------------------------------|----------------------------|
------------------------------|----------------------------|
------------------------------|----------------------------|
------------------------------|----------------------------|
 
 
    E  E  E    Q    E  E   E         E   E   E   E  E    E   S   S  E   
--&lt;&gt;6------------------6--11--|--/&lt;&gt;15--11--15--16-----/18--16p-15-----|
-------8----------------------|------------------------------------16--|
----------8--&lt;&gt;8----8---------|----------------------------------------|
------------------------------|----------------------------------------|
------------------------------|----------------------------------------|
------------------------------|----------------------------------------|
 
 
    E   E    E    E   E   E   E    E   
--/23--23s--18S--23--23--18--23s--18--|
--------------------------------------|
--------------------------------------|
--------------------------------------|
--------------------------------------|
--------------------------------------|
 
 
   T     T     T     T     T     T     T          
   S  S  S  S  S  S  S  S  S  S  S  S  S  S   E   
--18-16-18-16-18-16-18-16-18-15-20-16-18-15s-11--|
-------------------------------------------------|
-------------------------------------------------|
-------------------------------------------------|
-------------------------------------------------|
-------------------------------------------------|
 
 
  E  Q    S S S S S S S S S S    E  Q    E   E   E    Q     
------------------------------|----------------------------|
--8--8----6-6-8-8-6-6---------|--8--8----6--/8--/9--/11----|
----------------------8-8-5-5-|----------------------------|
------------------------------|----------------------------|
------------------------------|----------------------------|
------------------------------|----------------------------|
 
 
   T    T    T   T   T   T   T   T                                  
   S S  S S  S S S S S S S S S S S S     E  E   E     H         E   
--11-6-11-6-11-6-8-4-8-4-8-4-6-4-6-4-|--/6--8--10--&lt;&gt;11~--------L--|
-------------------------------------|-----------------------------|
-------------------------------------|-----------------------------|
-------------------------------------|-----------------------------|
-------------------------------------|-----------------------------|
-------------------------------------|-----------------------------|
 
 
  E  Q    S S E  E  E  E     E  Q    S S E   E     Q     
--6--6--------6-----------|--6--6--------6--11--&lt;&gt;11----|
----------8-9----9--8-----|----------8-9----------------|
-----------------------8--|-----------------------------|
--------------------------|-----------------------------|
--------------------------|-----------------------------|
--------------------------|-----------------------------|
 
 
   T     T     T     T     T     T     T     T     
   S  S  S  S  S  S  S  S  S  S  S  S  S  S  S  S  
--23-18-23-18-23-18-23-16-23-18-23-16-23-18-23-18-|
--------------------------------------------------|
--------------------------------------------------|
--------------------------------------------------|
--------------------------------------------------|
--------------------------------------------------|
 
 
    E   S  S   Q      E.    E.    E        Q.      H        E   
--/16--16-16-/18----/16---/15---/10--|--&lt;&gt;15~------------------|
-------------------------------------|-------------------------|
-------------------------------------|-------------------------|
-------------------------------------|-------------------------|
-------------------------------------|-------------------------|
-------------------------------------|-------------------------|
 
 
  W                   Q    E  E  E  E  E  E     E  E  E  E  E  E  E  E   
-------------------|-------------------------|--------------------------|
-------------------|-------------------------|--------------------------|
-------------------|--5----------------------|--------------------------|
-------------------|--5----------------------|--------------------------|
-------------------|--3----3--3--3--3--3--3--|--3--3--3--3--3--3--3--3--|
-------------------|-------------------------|--------------------------|
 
 
  Q    E  E  E  E  E  E     E  E  E  E  E  E  E  E     Q    E  E  E  E  E  E   
-------------------------|--------------------------|-------------------------|
-------------------------|--------------------------|-------------------------|
-------------------------|--------------------------|--3----------------------|
--6----------------------|--------------------------|--3----------------------|
--6----------------------|--------------------------|--1----1--1--1--1--1--1--|
--4----4--4--4--4--4--4--|--4--4--4--4--4--4--4--4--|-------------------------|
 
 
  E  E  E  E  E  E  E  E     Q    H        Q       Q    H        Q     
--------------------------|---------------------|---------------------|
--------------------------|---------------------|---------------------|
--------------------------|--5------------------|--5------------------|
--------------------------|--5------------------|--5------------------|
--1--1--1--1--1--1--1--1--|--3------------------|--3------------------|
--------------------------|---------------------|---------------------|
 
 
  E  S S S S S S S S S S S S S S    S S S S S S S S S S S S S S S S  
---------------------------------|----------------------------------|
---------------------------------|----------------------------------|
---------------------------------|----------------------------------|
--5------------------------------|----------------------------------|
--3--3-3-3-3-3-3-3-3-3-3-3-3-3-3-|--3-3-3-3-3-3-3-3-3-3-3-3-3-3-3-3-|
---------------------------------|----------------------------------|
 
 
  E  S S S S S S S S S S S S S S    S S S S S S S S S S S S S S S S  
---------------------------------|----------------------------------|
---------------------------------|----------------------------------|
---------------------------------|----------------------------------|
---------------------------------|----------------------------------|
--6------------------------------|----------------------------------|
--4--4-4-4-4-4-4-4-4-4-4-4-4-4-4-|--4-4-4-4-4-4-4-4-4-4-4-4-4-4-4-4-|
 
 
  E  S S S S E  H           E  S S S S E  H           E  E  E  E  E  E  E  E   
-------------------------|-------------------------|--------------------------|
-------------------------|-------------------------|--------------------------|
-------------3--L--------|-------------3--L--------|--------------------------|
--3----------3--L--------|--3----------3--L--------|--------5-----------5-----|
--1--1-1-1-1-1--L--------|--1--1-1-1-1-1--L--------|--3--3--3--3--3--3--3--3--|
-------------------------|-------------------------|--------------------------|
 
 
  E  Q    E  E  E  Q       E  E  E  E  E  E  E  E     E  E  E  E  E  E  E  E   
------------------------|--------------------------|--------------------------|
------------------------|--9--------8--------6-----|--9--------8--------6-----|
-----5----3--5-----5----|-----5--5-----5--5-----5--|-----5--5-----5--5-----5--|
-----5----3--5----------|--------------------------|--------------------------|
--3-------------3-------|--------------------------|--------------------------|
------------------------|--------------------------|--------------------------|
 
 
   T    T    T    T    T    T    T    T    
   S S  S S  S S  S S  S S  S S  S S  S S  
--11-8-11-8-11-8-11-8-11-8-11-8-11-8-11-8-|
------------------------------------------|
------------------------------------------|
------------------------------------------|
------------------------------------------|
------------------------------------------|
 
 
   T    T    T    T    T    T    T    T                               
   S S  S S  S S  S S  S S  S S  S S  S S    E  E  E  E  E  E  E  E   
--11-8-11-8-11-8-11-8-11-8-11-8-11-8-11-8-|--------------------------|
------------------------------------------|--9--------8--------6-----|
------------------------------------------|-----8--8-----8--8-----8--|
------------------------------------------|--------------------------|
------------------------------------------|--------------------------|
------------------------------------------|--------------------------|
 
 
  E  E  E  E  E  E  E  E      W                   E.  S Q    Q    Q     
--------------------------|--------------------|-----------------------|
--9--------8--------6-----|--11----------------|-----------------------|
-----8--8-----8--8-----8--|--------------------|--3-----3---------3----|
--------------------------|--------------------|--3-----3----6----3----|
--------------------------|--------------------|--1-----1----6----1----|
--------------------------|--------------------|-------------4---------|
 
 
  W                   W                   W                 
-------------------|-------------------|-------------------|
-------------------|-------------------|-------------------|
--8----------------|-------------------|-------------------|
--8----------------|--8----------------|--6----------------|
--6----------------|--8----------------|--6----------------|
-------------------|--6----------------|--4----------------|
 
 
  S S E  S S E  S S E    Q       E  E  E  E  E  E  E  E   
------------------------------|--------------------------|
------------------------------|--------------------------|
------------------------------|--------------------------|
-----------------------&lt;&gt;5----|--5--------5--------5-----|
--6-6-6--6-6-6--6-6-6---------|--3--3--3--3--3--3--3--3--|
--4-4-4--4-4-4--4-4-4---------|--------------------------|
 
 
  E  E  E  E  E  E    Q       W                   W                 
---------------------------|-------------------|-------------------|
---------------------------|-------------------|-------------------|
---------------------------|-------------------|-------------------|
--3--------3--------&lt;&gt;3----|--6----------------|--L----------------|
--1--1--1--1--1--1---------|--6----------------|--L----------------|
---------------------------|--4----------------|--L----------------|
 
 
  W                   W                   E  E  E  E  E  E  E  E   
-------------------|-------------------|--------------------------|
-------------------|-------------------|--8--------6--------8-----|
--5----------------|-------------------|-----8--8-----8--8-----8--|
--5----------------|--6----------------|--------------------------|
--3----------------|--6----------------|--------------------------|
-------------------|--4----------------|--------------------------|
 
 
  W                   S S S S S S S S S S S S S S S S  
-------------------|----------6-6-8-8---------6-6-8-8-|
-------------------|--6-6-9-9---------6-6-9-9---------|
--8----------------|----------------------------------|
--8----------------|----------------------------------|
--6----------------|----------------------------------|
-------------------|----------------------------------|
 
 
  S S S S S S S S S S S S S S S S    W                   Q    H        Q     
----------6-6-8-8---------6-6-8-8-|--6----------------|---------------------|
--6-6-9-9---------6-6-9-9---------|-------------------|---------------------|
----------------------------------|-------------------|--3------------------|
----------------------------------|-------------------|--3------------------|
----------------------------------|-------------------|--1------------------|
----------------------------------|-------------------|---------------------|
 
 
  W                   W                   W                   W                 
-------------------|-------------------|-------------------|-------------------|
-------------------|-------------------|-------------------|-------------------|
-------------------|-------------------|--5----------------|--L----------------|
--6----------------|--L----------------|--5----------------|--L----------------|
--6----------------|--L----------------|--3----------------|--L----------------|
--4----------------|--L----------------|-------------------|-------------------|
 
 
  E  S S S S S S S S S S S S S S    S S S S S S S S S S S S S S S S  
---------------------------------|----------------------------------|
---------------------------------|----------------------------------|
---------------------------------|----------------------------------|
--3------------------------------|----------------------------------|
--1--1-1-1-1-1-1-1-1-1-1-1-1-1-1-|--1-1-1-1-1-1-1-1-1-1-1-1-1-1-1-1-|
---------------------------------|----------------------------------|
 
 
  W                   W                   W                   W                 
-------------------|-------------------|-------------------|-------------------|
-------------------|-------------------|-------------------|-------------------|
-------------------|-------------------|-------------------|-------------------|
--5----------------|--L----------------|--6----------------|--L----------------|
--5----------------|--L----------------|--6----------------|--L----------------|
--3----------------|--L----------------|--4----------------|--L----------------|
 
 
  W                   W                   W                 
-------------------|-------------------|-------------------|
-------------------|-------------------|-------------------|
--5----------------|--L----------------|--3----------------|
--5----------------|--L----------------|--3----------------|
--3----------------|--L----------------|--1----------------|
-------------------|-------------------|-------------------|
 
 
                                                             PM PM         
  Q    H        Q       E  Q    E  E  E  E  E     E  Q    E  E  E    Q     
---------------------|-------------------------|-------------------&lt;&gt;6----|
---------------------|--8--8----6--8--6--------|--8--8-------6--8---------|
--3------------------|-------------------8--5--|----------8---------------|
--3------------------|-------------------------|--------------------------|
--1------------------|-------------------------|--------------------------|
---------------------|-------------------------|--------------------------|
 
 
   E   E  E   E   E   E   E   E      E   E   E   E  H         
--11--11--L--10--11--13--15--11--|--15--13--11--13--L--------|
---------------------------------|---------------------------|
---------------------------------|---------------------------|
---------------------------------|---------------------------|
---------------------------------|---------------------------|
---------------------------------|---------------------------|
 
 
    E  E  E    Q    E  E   E         E   E   E   E  E    E   S   S  E   
--&lt;&gt;6------------------6--11--|--/&lt;&gt;15--11--15--16-----/18--16p-15-----|
-------8----------------------|------------------------------------16--|
----------8--&lt;&gt;8----8---------|----------------------------------------|
------------------------------|----------------------------------------|
------------------------------|----------------------------------------|
------------------------------|----------------------------------------|
 
 
   E   E  E   E   E  E  E  E     E  E    E  E  H         
--11--11--6--11--11--6--------|--6----------------------|
------------------------9--8--|-----8-------6--L--------|
------------------------------|--------&lt;&gt;8--------------|
------------------------------|-------------------------|
------------------------------|-------------------------|
------------------------------|-------------------------|
 
 
  E  E  E  E  E  E  E  E     E  E  E  E  E  E    Q      
--------------------------|--------------------&lt;&gt;6~----|
-----6--8--6--8--6--------|-----6--8--6--8--9----------|
--------------------8--5--|----------------------------|
--------------------------|----------------------------|
--------------------------|----------------------------|
--------------------------|----------------------------|
 
 
   T    T    T    T    T    T    T    T                                  
   S S  S S  S S  S S  S S  S S  S S  S S     E  E   E     H         E   
--11-6-11-6-11-6--------------------------|--/6--8--10--&lt;&gt;11~--------L--|
-----------------13-9-13-9-13-9-11-8-11-8-|-----------------------------|
------------------------------------------|-----------------------------|
------------------------------------------|-----------------------------|
------------------------------------------|-----------------------------|
------------------------------------------|-----------------------------|
 
 
   E   E  E   S  S  E   E   E   E      E   E  E   S  S  E   E   Q     
--15--15--L--15-13-15--13----------|--15--15--L--13-15-13--15--20----|
---------------------------16--13--|---------------------------------|
-----------------------------------|---------------------------------|
-----------------------------------|---------------------------------|
-----------------------------------|---------------------------------|
-----------------------------------|---------------------------------|
 
 
   S   S  S  S  S   S  S   S  S  S  S   S  S   S  S  S  
--18p-15----15-16p-13-15p-11----11-15p-11-13p-10----10-|
---------16------------------13------------------11----|
-------------------------------------------------------|
-------------------------------------------------------|
-------------------------------------------------------|
-------------------------------------------------------|
 
 
    E   S  S   Q      E.    E.    E        Q.      H        E   
--/16--16-16-/18----/16---/15---/10--|--&lt;&gt;15~------------------|
-------------------------------------|-------------------------|
-------------------------------------|-------------------------|
-------------------------------------|-------------------------|
-------------------------------------|-------------------------|
-------------------------------------|-------------------------|
 
 
  H        Q    Q       Q    H        Q       H        Q    E  E   
---------------------|---------------------|----------------------|
---------------------|---------------------|----------------------|
----------------3----|--5------------------|-------------------3--|
----------------3----|--5------------------|-------------------3--|
----------------1----|--3------------------|-------------------1--|
---------------------|---------------------|----------------------|
 
 
  Q    H        Q       H        Q    Q       Q    H        Q     
---------------------|---------------------|---------------------|
---------------------|---------------------|---------------------|
--5------------------|----------------3----|--5------------------|
--5------------------|----------------3----|--5------------------|
--3------------------|----------------1----|--3------------------|
---------------------|---------------------|---------------------|
 
 
  W                   W                   H.           Q     
-------------------|-------------------|--------------------|
-------------------|-------------------|--------------------|
-------------------|-------------------|---------------3----|
-------------------|--6----------------|--L------------3----|
-------------------|--6----------------|--L------------1----|
-------------------|--4----------------|--L-----------------|
 
 
  Q    H        Q       H        Q    E  E     Q    H        Q     
---------------------|----------------------|---------------------|
---------------------|----------------------|---------------------|
--5------------------|-------------------3--|--5------------------|
--5------------------|-------------------3--|--5------------------|
--3------------------|-------------------1--|--3------------------|
---------------------|----------------------|---------------------|
 
 
  H        Q    Q       Q    H        Q       W                 
---------------------|---------------------|-------------------|
---------------------|---------------------|-------------------|
----------------3----|--5------------------|-------------------|
----------------3----|--5------------------|-------------------|
----------------1----|--3------------------|-------------------|
---------------------|---------------------|-------------------|
 
 
  W                   W                   W                 
-------------------|-------------------|-------------------|
-------------------|-------------------|-------------------|
-------------------|-------------------|-------------------|
--6----------------|--L----------------|--L----------------|
--6----------------|--L----------------|--L----------------|
--4----------------|--L----------------|--L----------------|
 
 
   S   S  S  S  S  S  S   S  S   S  S  S  S  S  S  S  
-----------------------------------------------------|
--11h-13-13-13-13-13-11h-13-16p-13-13-13-13-13-13-13-|
-----------------------------------------------------|
-----------------------------------------------------|
-----------------------------------------------------|
-----------------------------------------------------|
 
 
   S  S  S  S  S  S  S  S  S  S  S  S  S  S  S  S  
--15-15-15-13-13-13-11-11-13-13-13-11-11-11-------|
--------------------------------------------15-15-|
--------------------------------------------------|
--------------------------------------------------|
--------------------------------------------------|
--------------------------------------------------|
 
 
   S   S  S  S  S  S  S   S  S   S  S  S  S  S  S  S  
-----------------------------------------------------|
--11h-13-13-13-13-13-11h-13-16p-13-13-13-13-13-13-13-|
-----------------------------------------------------|
-----------------------------------------------------|
-----------------------------------------------------|
-----------------------------------------------------|
 
 
   S  S  S  S  S  S  S  S  S  S  S  S  S  S  S  S  
--15-15-15-13-13-13-11-11-13-13-13-11-11-11-------|
--------------------------------------------15-15-|
--------------------------------------------------|
--------------------------------------------------|
--------------------------------------------------|
--------------------------------------------------|
 
 
   S   S  S  S  S  S  S   S  S   S  S  S  S  S  S  S  
-----------------------------------------------------|
--11h-13-13-13-13-13-11h-13-16p-13-13-13-13-13-13-13-|
-----------------------------------------------------|
-----------------------------------------------------|
-----------------------------------------------------|
-----------------------------------------------------|
 
 
   S  S  S  S  S  S  S  S  S  S  S  S  S  S  S  S  
--15-15-15-13-13-13-11-11-13-13-13-11-11-11-------|
--------------------------------------------15-15-|
--------------------------------------------------|
--------------------------------------------------|
--------------------------------------------------|
--------------------------------------------------|
 
 
   S   S  S  S  S  S  S   S  S   S  S  S  S  S  S  S  
-----------------------------------------------------|
--11h-13-13-13-13-13-11h-13-16p-13-13-13-13-13-13-13-|
-----------------------------------------------------|
-----------------------------------------------------|
-----------------------------------------------------|
-----------------------------------------------------|
 
 
   S  S  S  S  S  S  S  S  S  S  S  S  S  S  S  S    E   E  E  E  E  E  Q     
--15-15-15-13-13-13-11-11-13-13-13-11-11-11-------|--------------------------|
--------------------------------------------15-15-|--6b--8--L--9--8--6-------|
--------------------------------------------------|---------------------8----|
--------------------------------------------------|--------------------------|
--------------------------------------------------|--------------------------|
--------------------------------------------------|--------------------------|
 
 
  E  E  E  E  S S  S S Q       S  S S  S  S   S  S   S  S   S  S   S S  S S  S  
----------------------------|--6s-8-6s-8-11s-13-11s-13-13s-15-13s-15-6s-8-6s-8-|
--6--6--L--8--6-------------|--------------------------------------------------|
----------------8p-5---5----|--------------------------------------------------|
---------------------8------|--------------------------------------------------|
----------------------------|--------------------------------------------------|
----------------------------|--------------------------------------------------|
 
 
  S S  S  S S S  S  S  S  S S  S S  S    E     E  E  E  S S    E.  E.  E    
--8-8-----------------------8----8-11-&lt;&gt;11--|--8--8--L--6-8-&lt;&gt;11---6-------|
------11-11-6-6-11-11-11-11---11------------|--------------------------8s--|
--------------------------------------------|------------------------------|
--------------------------------------------|------------------------------|
--------------------------------------------|------------------------------|
--------------------------------------------|------------------------------|
 
 
   E.  E.  E  S  S  S  S Q       S S S S S  S  S S S S S S S  S  S S  
------------------------------|--------------------------------------|
--11---8------6h-8p-6h-8------|--8-8-8-6-8-11p-8-6-8-8-8-6-8-11p-8-6-|
-----------8-------------5----|--------------------------------------|
------------------------------|--------------------------------------|
------------------------------|--------------------------------------|
------------------------------|--------------------------------------|
 
 
                             -\1       
   S  S  S  S  S   S   S  S  H         
--11----11-13-15p-13p-11--------------|
-----11------------------13-----------|
----------------------------15--------|
--------------------------------------|
--------------------------------------|
--------------------------------------|
 
 
   S   S  S  S  S  S  S   S  S   S  S  S  S  S  S  S  
-----------------------------------------------------|
--11h-13-13-13-13-13-11h-13-16p-13-13-13-13-13-13-13-|
-----------------------------------------------------|
-----------------------------------------------------|
-----------------------------------------------------|
-----------------------------------------------------|
 
 
   S  S  S  S  S  S  S  S  S  S  S  S  S  S  S  S  
--15-15-15-13-13-13-11-11-13-13-13-11-11-11-------|
--------------------------------------------15-15-|
--------------------------------------------------|
--------------------------------------------------|
--------------------------------------------------|
--------------------------------------------------|
 
 
   S   S  S  S  S  S  S   S  S   S  S  S  S  S  S  S  
-----------------------------------------------------|
--11h-13-13-13-13-13-11h-13-16p-13-13-13-13-13-13-13-|
-----------------------------------------------------|
-----------------------------------------------------|
-----------------------------------------------------|
-----------------------------------------------------|
 
 
   S  S  S  S  S  S  S  S  S  S  S  S  S  S  S  S  
--15-15-15-13-13-13-11-11-13-13-13-11-11-11-------|
--------------------------------------------15-15-|
--------------------------------------------------|
--------------------------------------------------|
--------------------------------------------------|
--------------------------------------------------|
 
 
   S   S  S  S  S  S  S   S  S   S  S  S  S  S  S  S  
-----------------------------------------------------|
--11h-13-13-13-13-13-11h-13-16p-13-13-13-13-13-13-13-|
-----------------------------------------------------|
-----------------------------------------------------|
-----------------------------------------------------|
-----------------------------------------------------|
 
 
   S  S  S  S  S  S  S  S  S  S  S  S  S  S  S  S  
--15-15-15-13-13-13-11-11-13-13-13-11-11-11-------|
--------------------------------------------15-15-|
--------------------------------------------------|
--------------------------------------------------|
--------------------------------------------------|
--------------------------------------------------|
 
 
   S   S  S  S  S  S  S   S  S   S  S  S  S  S  S  S  
-----------------------------------------------------|
--11h-13-13-13-13-13-11h-13-16p-13-13-13-13-13-13-13-|
-----------------------------------------------------|
-----------------------------------------------------|
-----------------------------------------------------|
-----------------------------------------------------|
 
 
   S  S  S  S  S  S  S  S  S  S  S  S  S  S  S  S  
--15-15-15-13-13-13-11-11-13-13-13-11-11-11-------|
--------------------------------------------15-15-|
--------------------------------------------------|
--------------------------------------------------|
--------------------------------------------------|
--------------------------------------------------|
 
 
  S S S S   E  S S E  E  E    E     E.  E.  E    H          
---------------------------------|-------------------------|
---------------------------------|-------------------------|
--5-5-5-5-&lt;&gt;8--5-5-7--------&lt;&gt;7--|-------------&lt;&gt;7b--------|
----------------------8--5-------|--5---6---8--------------|
---------------------------------|-------------------------|
---------------------------------|-------------------------|
 
 
  S S S S S S S S S S S S S S S S    S S S S S S S S S S S S   Q      
----------------------------------|--------------------------&lt;&gt;6~----|
--------------------------9-8-6-8-|------------6-8-9-8-6-8-9---------|
------5-7-8-7-5-7-5---7-8---------|--5---5-7-8-----------------------|
--7-8---------------8-------------|----8-----------------------------|
----------------------------------|----------------------------------|
----------------------------------|----------------------------------|
 
 
  E.    E.  E  E.    E.  E     S   S S   S  Q     S  S  S  Q    S  
------&lt;&gt;6-------------------|--------------13----13-11-10-11------|
--8---------8--6---&lt;&gt;8---6--|-------------------------------------|
----------------------------|--8s-10-8s-10------------------------|
----------------------------|-------------------------------------|
----------------------------|-------------------------------------|
----------------------------|-------------------------------------|
 
 
   S  S  S  S S S  S S S S S S S S S S    S S S S S S S S S S S S S  S S  S  
--13----15----8---10-------------------|--------------------------8-11-8-11-|
-----13----13---8----8-9-6-------------|------------------6---6-8-----------|
---------------------------8-5-8---5---|------5---5-8-5-8---8---------------|
---------------------------------8---8-|--5-8---8---------------------------|
---------------------------------------|------------------------------------|
---------------------------------------|------------------------------------|
 
 
   E   S  S  E   E   E   E   E   E      E   S  S  E   E   E   E   Q     
--15--15-15-15--13--------------13--|--15--15-15-15--13------18--15----|
--------------------16--13--16------|--------------------16------------|
------------------------------------|----------------------------------|
------------------------------------|----------------------------------|
------------------------------------|----------------------------------|
------------------------------------|----------------------------------|
 
 
   E   S  S  E   E   E   E   E   E   
--15--15-15-15--13--------------13--|
--------------------16--13--16------|
------------------------------------|
------------------------------------|
------------------------------------|
------------------------------------|
 
 
   S   S   S  S  S  S  S  S  S   S  S  S    Q     
--13h-15p-13----------13-15-18p-15----15-&lt;&gt;15----|
-------------16-13-16--------------18------------|
-------------------------------------------------|
-------------------------------------------------|
-------------------------------------------------|
-------------------------------------------------|
 
 
   E   S  S  E   E   E   E   E   E      E   S  S  E   E   E   E   Q     
--15--15-15-15--13--------------13--|--15--15-15-15--13------18--15----|
--------------------16--13--16------|--------------------16------------|
------------------------------------|----------------------------------|
------------------------------------|----------------------------------|
------------------------------------|----------------------------------|
------------------------------------|----------------------------------|
 
 
   E   S  S  E   E   E   E   E   E   
--15--15-15-15--13--------------13--|
--------------------16--13--16------|
------------------------------------|
------------------------------------|
------------------------------------|
------------------------------------|
 
 
   S   S  S  S  S  S  S   S E   E   E   E   
--15p-13----------13-15p-13-8--11--13--15--|
---------16-13-16--------------------------|
----------------------------5---8--10--12--|
-------------------------------------------|
-------------------------------------------|
-------------------------------------------|
 
 
                                              Pac-man sound     
   S   S  S  S  S  S  S   S  E   E   E  E     W                 
--15p-13----------13--------15--13--11--8--|-------------------|
---------16-13-16----16p-13----------------|-------------------|
----------------------------12--10---8--5--|-------------------|
-------------------------------------------|-------------------|
-------------------------------------------|-------------------|
-------------------------------------------|-------------------|
 
 
   S  S  S  S  S  S  S  S  S  S  S  S  S  S  S  S  
--------------------------------------------------|
--------------------------------------------------|
--------------------------------------12----12-13-|
--13-12----12----------------12-13-15----15-------|
--------15----15-11----11-15----------------------|
--------------------15----------------------------|
 
 
   S  S  S  S  S. S. S  S  S  S  S  Q       
-------------------------------------------|
--------13----13-15-16-15-16-18-16-18b~----|
--12-13----15------------------------------|
-------------------------------------------|
-------------------------------------------|
-------------------------------------------|
 
 
   S  S  S  S  S  S  S  S  S  S  S  S  S  S  S  S  
--13----------------------13----13-15-13-15-16----|
-----16-15-13----13-15-16----16----------------18-|
--------------13----------------------------------|
--------------------------------------------------|
--------------------------------------------------|
--------------------------------------------------|
 
 
   S  S  S  S  S  S  S  S  H           
--16-15-18-15-------------18b~--------|
--------------18-16-15-16-------------|
--------------------------------------|
--------------------------------------|
--------------------------------------|
--------------------------------------|
 
 
                                             W  W  
   S  S  S  S  S  S  S  S  S  S  S  S  S  S  S  S  
--20-18-20-16-20-15-13-------------13-15-16-18-18-|
-----------------------16-15-13-15----------------|
--------------------------------------------------|
--------------------------------------------------|
--------------------------------------------------|
--------------------------------------------------|
 
 
   S  S  S  S  S  S  S  S  S  S  S  S  Q      
--18-16-18-15-18-13----------------13-16~----|
--------------------16-15-13-15-16-----------|
---------------------------------------------|
---------------------------------------------|
---------------------------------------------|
---------------------------------------------|
 
 
   S  S  S  S  S  S  S  S  S  S  S  S  S  S  S  S  
--------13----13-15-13----13----------------------|
--13-16----16----------16----16-15-16-15-13-------|
--------------------------------------------15-12-|
--------------------------------------------------|
--------------------------------------------------|
--------------------------------------------------|
 
 
   S  S  S  S  S  S  S  S  S  S  S  S  S  S  S  S  
--------------------------------------------------|
--------------------------------------------13-15-|
--13-15-13-12----------------------12-13-15-------|
--------------15-13-12----12-13-15----------------|
-----------------------15-------------------------|
--------------------------------------------------|
 
 
   Q     E    Q     E   E   E      E    E   E    E   E    E    Q     
--20----18S--23----18--20--18--|--20S--18--15S--13-----------/15----|
-------------------------------|--------------------13S--11---------|
-------------------------------|------------------------------------|
-------------------------------|------------------------------------|
-------------------------------|------------------------------------|
-------------------------------|------------------------------------|
 
 
   E   E   E    E   E   E    Q           E     E   E   E   E    E   Q     
--22--22s--6--/23--22--20s--18----|--/&lt;&gt;13--&lt;&gt;13--\1--15--13s--20--20----|
----------------------------------|--------------------------------------|
----------------------------------|--------------------------------------|
----------------------------------|--------------------------------------|
----------------------------------|--------------------------------------|
----------------------------------|--------------------------------------|
 
 
      (Octave pedal/Harmonizer)                                                 
      W                        W    W    W    W  W  W   W    W    W    W    W   
      S                        S    S    S    S  S  S   S    S    S    S    S   
------------------------------------------------15-20s-15-----------------------
-------------------------------------------&lt;&gt;16-----------&lt;&gt;16----------------&lt;&gt;
--------------------------------------&lt;&gt;17---------------------&lt;&gt;17------&lt;&gt;17---
---------------------------------&lt;&gt;17-------------------------------&lt;&gt;17--------
--/&lt;&gt;15---------------------&lt;&gt;18------------------------------------------------
--------------------------------------------------------------------------------
 
 
    W  W   W  W   W    W    W    W    W  T    W    W    T      
    S  S   S  S   S    S    S    S    S  S    S    S    Q      
---------/15-20s-15---------------------20-----------&lt;&gt;20~----|
------16------------&lt;&gt;16------&lt;&gt;16--------------&lt;&gt;16----------|
--/17--------------------&lt;&gt;17------&lt;&gt;17----&lt;&gt;17---------------|
--------------------------------------------------------------|
--------------------------------------------------------------|
--------------------------------------------------------------|
 
 
     T         T         T                   T         T         T              
     S    S    S    S    S    S    S    S    S    S    S    S    S    S    S    
--&lt;&gt;20-&lt;&gt;15-&lt;&gt;20-&lt;&gt;15-&lt;&gt;20-&lt;&gt;15-&lt;&gt;13-&lt;&gt;15-&lt;&gt;20-&lt;&gt;15-&lt;&gt;20-&lt;&gt;15-&lt;&gt;20-&lt;&gt;15-&lt;&gt;13-&lt;&gt;1
--------------------------------------------------------------------------------
--------------------------------------------------------------------------------
--------------------------------------------------------------------------------
--------------------------------------------------------------------------------
--------------------------------------------------------------------------------
 
 
                                             tap bend     
     T         T         T                          T     
     S    S    S    S    S    S    S    S    Q      Q     
--&lt;&gt;20-&lt;&gt;15-&lt;&gt;20-&lt;&gt;15-&lt;&gt;20-&lt;&gt;15-&lt;&gt;13-&lt;&gt;15-&lt;&gt;17b-----L----|
---------------------------------------------------------|
---------------------------------------------------------|
---------------------------------------------------------|
---------------------------------------------------------|
---------------------------------------------------------|
 
 
   S. S. S  S  S  S  S  S  S  S  S  S  S  S  S      E   Q     E   E   E   Q     
-----------------------------------10-12-13-15-|--/18--18----20--18------------|
-----------------------------11-13-------------|---------------------20--16----|
-----------------10-12-10-12-------------------|-------------------------------|
-----------10-12-------------------------------|-------------------------------|
--10-11-13-------------------------------------|-------------------------------|
-----------------------------------------------|-------------------------------|
 
 
   T        T        T        T        T        T        T        T        
   |--3--|  |--3--|  |--3--|  |--3--|  |--3--|  |--3--|  |--3--|  |--3--|  
   S  S  S  S  S  S  S  S  S  S  S  S  S  S  S  S  S  S  S  S  S  S  S  S  
--20-15-11-20-11-15-20-15-11-20-11-15-20-15-11-20-11-15-20-15-11-20-11-15-|
--------------------------------------------------------------------------|
--------------------------------------------------------------------------|
--------------------------------------------------------------------------|
--------------------------------------------------------------------------|
--------------------------------------------------------------------------|
 
 
   S  S  S  S  E   E    E    E   E   E   
--20-20-20-20-18--15s--18s--15------15--|
--------------------------------18------|
----------------------------------------|
----------------------------------------|
----------------------------------------|
----------------------------------------|
 
 
   T     T     T     T     T     T     T     T     T     T     T     T     T    
   T  T  T  T  T  T  T  T  T  T  T  T  T  T  T  T  T  T  T  T  T  T  T  T  T  T 
--20-11-20-11-18-11-18-11-20-11-20-11-16-11-16-11-20-11-20-11-18-11-18-11-20-11-
--------------------------------------------------------------------------------
--------------------------------------------------------------------------------
--------------------------------------------------------------------------------
--------------------------------------------------------------------------------
--------------------------------------------------------------------------------
 
 
   S   S  S  S  S  S  S  S  S  S  S  S  E   E   
--20p-16----------------16-18-16-18-20-23------|
---------16----------16--------------------21--|
------------17----17---------------------------|
---------------18------------------------------|
-----------------------------------------------|
-----------------------------------------------|
 
 
   S  S  S  S  S  S  S  S  H               S S  S  S  S  S  S  S  H             
-----18----18----22----22-22pbr--------|----------------------10-16pbr~--------|
--18----18----18----18-----------------|-------------10-11-13------------------|
---------------------------------------|-----8-10-12---------------------------|
---------------------------------------|--12-----------------------------------|
---------------------------------------|---------------------------------------|
---------------------------------------|---------------------------------------|
 
 
   H           Q.        S  S     E   E   E   E   Q.      S   S  
------------------------------|---------------------------------|
--18b~--------18b~------18-16-|--18--16-------------------------|
------------------------------|----------17--15~--L-------------|
------------------------------|--------------------------15h-17-|
------------------------------|---------------------------------|
------------------------------|---------------------------------|
 
 
   E   E   E   E   E   E   E   E      E   E   E   E     H          
----------------------------------|-------------------------------|
----------------------------------|------16--18------&lt;&gt;16~--------|
--15--------------------------15--|--17----------15---------------|
------17--16--15------15--17------|-------------------------------|
------------------18--------------|-------------------------------|
----------------------------------|-------------------------------|
 
 
  Q     Q     E  E   E   E      Q.        Q     Q     E   
-------15----16-----18--16--|--18br------18----16----15--|
----------------------------|----------------------------|
----------------------------|----------------------------|
----------------------------|----------------------------|
----------------------------|----------------------------|
----------------------------|----------------------------|
 
 
   E    E   E   E   E   E   E   E     Q     E   E   E.     S  Q     
--16p--15--------------------------|-------------------------------|
-----------16--------------18--16--|--L----18--16--18br---16-------|
---------------15------15----------|-------------------------15----|
-------------------17--------------|-------------------------------|
-----------------------------------|-------------------------------|
-----------------------------------|-------------------------------|
 
 
   E   E   E   E  E   E   E   E     E   E   E   E   S   S  S  S  Q     
------18-------------15----------|---------11--13--15p-13----13-18----|
--16------16--13--L------13--11--|--9--11-----------------16----------|
---------------------------------|------------------------------------|
---------------------------------|------------------------------------|
---------------------------------|------------------------------------|
---------------------------------|------------------------------------|
 
 
     whammy bar                                                     
     Q          Q        Q        Q         Q.       H          E   
----------------------------------------|--13b------15br--------L--|
----------------------------------------|--------------------------|
--&lt;&gt;15b---------------------------------|--------------------------|
-------------&lt;&gt;15b----&lt;&gt;13b-------------|--------------------------|
-------------------------------&lt;&gt;15b----|--------------------------|
----------------------------------------|--------------------------|
 
 
                     |--3--|                    |--3--|  
   S  S  S  S  S  S  S  S  S  S  S  S  S  S  S  S  S  S  
--20-16----------16-20-16----20-16----------16-20-16----|
--------20-16-20----------20-------20-16-20----------20-|
--------------------------------------------------------|
--------------------------------------------------------|
--------------------------------------------------------|
--------------------------------------------------------|
 
 
               T        T        T             
   S  S  S  S  S  S  S  S  S  S  S  S  E   E   
--20-16---------------------------------------|
--------20-16---------------------------------|
--------------19-17-15------------------------|
-----------------------18-15-13-15-18-17--15--|
----------------------------------------------|
----------------------------------------------|
 
 
   E   S  S  S  S  S  S  S  S  S  S  S  S  S  S  
---------------18-16-15-------------------------|
------------16----------18-16-15----------------|
---------15----------------------17-15-13-------|
------17----------------------------------17-15-|
--18--------------------------------------------|
------------------------------------------------|
 
 
   S  S  S  S  S  S  S  S  S  S  S  S  S  S  E       Q.      Q       E.  S  E   
------------------------------------------------|------------------------------|
-----------------13-15-16-15-13----------13-15--|--/16------16----&lt;&gt;13-----13--|
--------12-13-15----------------15-13-15--------|------------------------------|
--13-15-----------------------------------------|------------------------------|
------------------------------------------------|------------------------------|
------------------------------------------------|------------------------------|
 
 
   E   E  E     Q      Q     E      S   S  S  S  S   S   S  S  H          
------13-----&lt;&gt;15~--------------|----------------------------------------|
--16------------------16----15--|--13p-11--------------------------------|
--------------------------------|---------12----10h-12p-10----10b--------|
--------------------------------|------------13------------13------------|
--------------------------------|----------------------------------------|
--------------------------------|----------------------------------------|
 
 
   E  E   E    E   H             E   E   E   E   E   E   E   E   
----------------------------|--/15--15--11--15--15--11--15--11--|
----------------------------|-----------------------------------|
--10--8--12--&lt;&gt;8~--L--------|-----------------------------------|
----------------------------|-----------------------------------|
----------------------------|-----------------------------------|
----------------------------|-----------------------------------|
 
 
   E   E  E   E  E   E     Q      
--15--16-----15-----11--&lt;&gt;11~----|
---------------------------------|
---------------------------------|
---------------------------------|
---------------------------------|
---------------------------------|
 
 
   S  S  S  S  S  S  S  S  S  S  S  S  S  S  S  S  
--------------------------------------------------|
--------------------------------------------------|
--------------12-------12-13----12-13-15-12-13-15-|
--------13-15----13-15-------15-------------------|
--15-17-------------------------------------------|
--------------------------------------------------|
 
 
   T     T                 T     T                 
   S  S  S  S  S  S  S  S  S  S  S  S  S  S  S  S  
--------------15-13-------------------18-15-------|
--16-13-18-13-------16-13-18-15-20-15-------16-13-|
--------------------------------------------------|
--------------------------------------------------|
--------------------------------------------------|
--------------------------------------------------|
 
 
   S  S S S  S  S S S  S  S S S  S  S S S  
--11-11-8-8-13-13-8-8-15-15-8-8-13-13-8-8-|
------------------------------------------|
------------------------------------------|
------------------------------------------|
------------------------------------------|
------------------------------------------|
 
 
   T       T       T       T       T       T       T       T       
   |--3-|  |--3-|  |--3-|  |--3-|  |--3-|  |--3-|  |--3-|  |--3-|  
   S  S S  S  S S  S  S S  S  S S  S  S S  S  S S  S  S S  S  S S  
--16-11-8-16-11-8-16-11-8-16-11-8-16-11-8-16-11-8-16-11-8-16-11-8-|
------------------------------------------------------------------|
------------------------------------------------------------------|
------------------------------------------------------------------|
------------------------------------------------------------------|
------------------------------------------------------------------|
 
 
   S  S  S  S  S  S  S  S  S  S  S  S  S  S  S  S  
-----------11-13-15-13-11-13-11-------------------|
--13-11-13----------------------13-11----------11-|
--------------------------------------12-10-12----|
--------------------------------------------------|
--------------------------------------------------|
--------------------------------------------------|
 
 
   S  S  S  S  S  S  S  S  S  S  S  S    Q         E   E   E   E  E   Q     E   
----------------------------------------------|--/11--10--11--10---------------|
--13-13-11----11-11---------------------------|----------------------11----11--|
-----------12-------12-12-10-12-10------------|--------------------------------|
-----------------------------------13-&lt;&gt;13----|--------------------------------|
----------------------------------------------|--------------------------------|
----------------------------------------------|--------------------------------|
 
 
     Q.         E   E   E     Q      
------------------------------------|
--&lt;&gt;15brb---------------------------|
---------------12--10---------------|
-----------------------13--&lt;&gt;13~----|
------------------------------------|
------------------------------------|
 
 
                           T  W  T  W  T  W  T  W  
   S  S  S  S  S  S  S  S  S  S  S  S  S  S  S  S  
--------------------------------------------------|
--------------------------------------------------|
--------------12-13-15-17-17-12-17-12-17-12-17-12-|
-----12-13-15-------------------------------------|
--15----------------------------------------------|
--------------------------------------------------|
 
 
   whammy bar dive                                                              
   T                     T        T        T        T        T        T        T
   |---------3--------|  |--3--|  |--3--|  |--3--|  |--3--|  |--3--|  |--3--|  |
   S               S  S  S  S  S  S  S  S  S  S  S  S  S  S  S  S  S  S  S  S  S
--20--------------16-15-20-16-15-20-16-15-20-16-15-20-16-15-20-16-15-20-16-15-20
--------------------------------------------------------------------------------
--------------------------------------------------------------------------------
--------------------------------------------------------------------------------
--------------------------------------------------------------------------------
--------------------------------------------------------------------------------
 
 
  W                   W                   W                   W                 
-------------------|-------------------|-------------------|-------------------|
-------------------|-------------------|-------------------|-------------------|
--5----------------|--L----------------|-------------------|-------------------|
--5----------------|--L----------------|--6----------------|--L----------------|
--3----------------|--L----------------|--6----------------|--L----------------|
-------------------|-------------------|--4----------------|--L----------------|
 
 
  W                   W                   W                   W                 
-------------------|-------------------|-------------------|-------------------|
-------------------|-------------------|-------------------|-------------------|
--3----------------|--L----------------|--8----------------|--L----------------|
--3----------------|--L----------------|--8----------------|--L----------------|
--1----------------|--L----------------|--6----------------|--L----------------|
-------------------|-------------------|-------------------|-------------------|
 
 
  W                   W                   W                   W                 
-------------------|-------------------|-------------------|-------------------|
-------------------|-------------------|-------------------|-------------------|
--5----------------|--L----------------|-------------------|-------------------|
--5----------------|--L----------------|--6----------------|--L----------------|
--3----------------|--L----------------|--6----------------|--L----------------|
-------------------|-------------------|--4----------------|--L----------------|
 
 
  W                   W                 
-------------------|-------------------|
-------------------|-------------------|
--3----------------|--L----------------|
--3----------------|--L----------------|
--1----------------|--L----------------|
-------------------|-------------------|
 
 
     S  S    S   S    S  S    S   S    S  S    S   S    S  S    S S   
--&lt;&gt;15-15s-&lt;&gt;3-&lt;&gt;3-&lt;&gt;15-15s-&lt;&gt;3-&lt;&gt;3-&lt;&gt;15-15s-&lt;&gt;3-&lt;&gt;3-&lt;&gt;15-15s-&lt;&gt;3-3s-|
---------------------------------------------------------------------|
---------------------------------------------------------------------|
---------------------------------------------------------------------|
---------------------------------------------------------------------|
---------------------------------------------------------------------|
 
 
   H.           Q       W                   W                 
--15-----------------|-------------------|-------------------|
---------------------|-------------------|-------------------|
---------------------|-------------------|-------------------|
---------------------|--6----------------|--L----------------|
---------------------|--6----------------|--L----------------|
---------------------|--4----------------|--L----------------|
 
 
  W                   W                   E  S S S S S S S S S S S S S S  
-------------------|-------------------|---------------------------------|
-------------------|-------------------|---------------------------------|
--5----------------|--L----------------|---------------------------------|
--5----------------|--L----------------|--3------------------------------|
--3----------------|--L----------------|--1--1-1-1-1-1-1-1-1-1-1-1-1-1-1-|
-------------------|-------------------|---------------------------------|
 
 
  S S S S S S S S S S S S S S S S    W                   W                 
----------------------------------|-------------------|-------------------|
----------------------------------|-------------------|-------------------|
----------------------------------|-------------------|-------------------|
----------------------------------|--5----------------|--L----------------|
--1-1-1-1-1-1-1-1-1-1-1-1-1-1-1-1-|--5----------------|--L----------------|
----------------------------------|--3----------------|--L----------------|
 
 
  W                   W                   W                   W                 
-------------------|-------------------|-------------------|-------------------|
-------------------|-------------------|-------------------|-------------------|
-------------------|-------------------|--5----------------|--L----------------|
--6----------------|--L----------------|--5----------------|--L----------------|
--6----------------|--L----------------|--3----------------|--L----------------|
--4----------------|--L----------------|-------------------|-------------------|
 
 
  W                   Q    H        Q     
-------------------|---------------------|
-------------------|---------------------|
--3----------------|--3------------------|
--3----------------|--3------------------|
--1----------------|--1------------------|
-------------------|---------------------|
 
 
   S  S  S  S S S  S  S  S  S S S  S  S S S  
--11-11-11-11-8-8-11-11-11-11-8-8-11-11-8-8-|
--------------------------------------------|
--------------------------------------------|
--------------------------------------------|
--------------------------------------------|
--------------------------------------------|
 
 
   S  S  S  S S S  S  S  S  S S S  S  S S S  
--11-11-11-11-8-8-11-11-11-11-8-8-11-11-8-8-|
--------------------------------------------|
--------------------------------------------|
--------------------------------------------|
--------------------------------------------|
--------------------------------------------|
 
 
   S  S  S  S  S  S  S  S  S  S  S  S  S  S  S  S  
--15-15-15-15-11-11-15-15-15-15-11-11-15-15-11-11-|
--------------------------------------------------|
--------------------------------------------------|
--------------------------------------------------|
--------------------------------------------------|
--------------------------------------------------|
 
 
   S  S  S  S  S  S  S  S  S  S  S  S  S  S  S  S  
--15-15-15-15-11-11-15-15-15-15-11-11-15-15-11-11-|
--------------------------------------------------|
--------------------------------------------------|
--------------------------------------------------|
--------------------------------------------------|
--------------------------------------------------|
 
 
   S  S  S  S S S  S  S  S  S S S  S  S S S  
--13-13-13-13-8-8-13-13-13-13-8-8-13-13-8-8-|
--------------------------------------------|
--------------------------------------------|
--------------------------------------------|
--------------------------------------------|
--------------------------------------------|
 
 
   S  S  S  S S S  S  S  S  S S S  S  S S S  
--13-13-13-13-8-8-13-13-13-13-8-8-13-13-8-8-|
--------------------------------------------|
--------------------------------------------|
--------------------------------------------|
--------------------------------------------|
--------------------------------------------|
 
 
   S  S  S  S S S  S  S  S  S S S  S  S S S  
--11-11-11-11-8-8-11-11-11-11-8-8-11-11-8-8-|
--------------------------------------------|
--------------------------------------------|
--------------------------------------------|
--------------------------------------------|
--------------------------------------------|
 
 
  S  S  S S  S S  S S  S  S  S S  S S  S S  
-------------------------------------------|
-------------------------------------------|
----------8----8-10-8-10-12-10-8-10-8------|
--8-10-12---12------------------------10-8-|
-------------------------------------------|
-------------------------------------------|
 
 
   S  S  S  S S S  S  S  S  S S S  S  S S S  
--11-11-11-11-8-8-11-11-11-11-8-8-11-11-8-8-|
--------------------------------------------|
--------------------------------------------|
--------------------------------------------|
--------------------------------------------|
--------------------------------------------|
 
 
   S  S  S  S S S  S  S  S  S S S  S  S S S  
--11-11-11-11-8-8-11-11-11-11-8-8-11-11-8-8-|
--------------------------------------------|
--------------------------------------------|
--------------------------------------------|
--------------------------------------------|
--------------------------------------------|
 
 
   S  S  S  S  S  S  S  S  S  S  S  S  S  S  S  S  
--15-15-15-15-11-11-15-15-15-15-11-11-15-15-11-11-|
--------------------------------------------------|
--------------------------------------------------|
--------------------------------------------------|
--------------------------------------------------|
--------------------------------------------------|
 
 
   S  S  S  S  S  S  S  S  S  S  S  S  S  S  S  S  
--15-15-15-15-11-11-15-15-15-15-11-11-15-15-11-11-|
--------------------------------------------------|
--------------------------------------------------|
--------------------------------------------------|
--------------------------------------------------|
--------------------------------------------------|
 
 
   S  S  S  S S S  S  S  S  S S S  S  S S S  
--13-13-13-13-8-8-13-13-13-13-8-8-13-13-8-8-|
--------------------------------------------|
--------------------------------------------|
--------------------------------------------|
--------------------------------------------|
--------------------------------------------|
 
 
   S  S  S  S S S  S  S  S  S S S  S  S S S  
--13-13-13-13-8-8-13-13-13-13-8-8-13-13-8-8-|
--------------------------------------------|
--------------------------------------------|
--------------------------------------------|
--------------------------------------------|
--------------------------------------------|
 
 
               |---3---|                                
   S  S  S  S  S   S   S  S  S  S  S  S  S  S  S  S  S  
--------------15h-16p-15-------------------------------|
-----------16------------16----16----------------------|
--------17------------------17----17----17-------------|
-----17------------------------------17----17----17----|
--18------------------------------------------18----18-|
-------------------------------------------------------|
 
 
                           |---3--|  |---3--|  |---3--|         
   S  S  S  S  S  S  S  S  S   S  S  S   S  S  S   S  S  S   S  
--------------------15----16p-15----16p-15----16p-15----16p-15-|
--------------16-------16--------16--------16--------16--------|
-----------17----17--------------------------------------------|
--------17-----------------------------------------------------|
--15-18--------------------------------------------------------|
---------------------------------------------------------------|
 
 
   PM  PM  PM  PM  PM  PM  PM  PM     PM  PM  PM  PM  PM  PM  PM  PM  
   E   E   E   E   E   E   E   E      E   E   E   E   E   E   E   E   
--15--18--18--15--18--18--15--18--|--18--15--15--18--18--15----------|
----------------------------------|--------------------------18--16--|
----------------------------------|----------------------------------|
----------------------------------|----------------------------------|
----------------------------------|----------------------------------|
----------------------------------|----------------------------------|
 
 
   PM  PM  PM  PM  PM  PM  PM  PM     PM  PM  PM  PM  PM  PM  PM  PM  
   E   E   E   E   E   E   E   E      E   E   E   E   E   E   E   E   
--13--15--15--13--15--15--13--15--|--15--13--15--15--16--15--13------|
----------------------------------|------------------------------16--|
----------------------------------|----------------------------------|
----------------------------------|----------------------------------|
----------------------------------|----------------------------------|
----------------------------------|----------------------------------|
 
 
   E   E   E   E  E   E  E   E     E   E  E   E   E   E   E  E   
--13--13--13--13-----13-----13--|-----13-----13--13--13--13-----|
--------------------------------|-------------------------------|
--------------------------------|-------------------------------|
--------------------------------|-------------------------------|
--------------------------------|-------------------------------|
--------------------------------|-------------------------------|
 
 
   S   S   S   S   S   S   S   S   S   S   S   S   S   S   S   S  
--18p-15h-18p-15h-18p-15h-18p-15h-18p-15h-18p-15h-18p-15h-18p-15-|
-----------------------------------------------------------------|
-----------------------------------------------------------------|
-----------------------------------------------------------------|
-----------------------------------------------------------------|
-----------------------------------------------------------------|
 
 
   S   S   S   S   S   S   S   S   S   S   S   S   S   S   S   S  
--18p-15h-18p-15h-18p-15h-18p-15h-18p-15h-18p-15h-18p-15h-18p-15-|
-----------------------------------------------------------------|
-----------------------------------------------------------------|
-----------------------------------------------------------------|
-----------------------------------------------------------------|
-----------------------------------------------------------------|
 
 
   S   S   S   S   S   S   S   S   S   S   S   S   S   S   S   S  
--18p-15h-18p-15h-18p-15h-18p-15h-18p-15h-18p-15h-18p-15h-18p-15-|
-----------------------------------------------------------------|
-----------------------------------------------------------------|
-----------------------------------------------------------------|
-----------------------------------------------------------------|
-----------------------------------------------------------------|
 
 
   S   S   S   S   S   S   S   S   S   S   S   S   S   S   S   S  
--18p-15h-18p-15h-18p-15h-18p-15h-18p-15h-18p-15h-18p-15h-18p-15-|
-----------------------------------------------------------------|
-----------------------------------------------------------------|
-----------------------------------------------------------------|
-----------------------------------------------------------------|
-----------------------------------------------------------------|
 
 
   S   S   S   S   S   S   S   S   S   S   S   S   S   S   S   S  
--18p-15h-18p-15h-18p-15h-18p-15h-18p-15h-18p-15h-18p-15h-18p-15-|
-----------------------------------------------------------------|
-----------------------------------------------------------------|
-----------------------------------------------------------------|
-----------------------------------------------------------------|
-----------------------------------------------------------------|
 
 
   S   S   S   S   S   S   S   S   S   S   S   S   S   S   S   S  
--18p-15h-18p-15h-18p-15h-18p-15h-18p-15h-18p-15h-18p-15h-18p-15-|
-----------------------------------------------------------------|
-----------------------------------------------------------------|
-----------------------------------------------------------------|
-----------------------------------------------------------------|
-----------------------------------------------------------------|
 
 
   PM  PM  PM  PM  PM  PM  PM  PM                              
   E   E   E   E   E   E   E   E        H         H            
--16--15--13------15--13----------|--&lt;&gt;15b--------------------|
--------------16----------16--15--|---------------------------|
--13--12--10------12--10----------|---------------7pbr--------|
--------------13----------13--12--|---------------------------|
----------------------------------|---------------------------|
----------------------------------|---------------------------|
 
 
                       |-----3-----|                                
   S   S   E   E   E   Q     Q     Q          Q.      H        E    
--11h-13p-11----------------------------|-------------------------||
--------------13--11--------11----13----|--&lt;&gt;13~------------------||
----------------------12----------------|-------------------------||
----------------------------------------|-------------------------||
----------------------------------------|-------------------------||
----------------------------------------|-------------------------||
 
 
 
 
Duration Legend
---------------
W - whole
H - half
Q - quarter
E - 8th
S - 16th
T - 32nd
X - 64th
. - note dotted
|-n-|  - n-tuplets
 
 
Tablature Legend
----------------
L - tied note
x - dead note
g - grace note
(n) - ghost note
&gt; - accentuded note
NH - natural harmonic
AH - artificial harmonic
TH - tapped harmonic
SH - semi harmonic
PH - pitch harmonic
h - hammer on
p - pull off
b - bend
br - bendRelease
pb - preBend
pbr - preBendRelease
brb - bendReleaseBend
\n/ - tremolo bar dip
\n - tremolo bar dive
-/n - tremolo bar Release up
/n\ - tremolo bar inverted dip
/n - tremolo bar return
-\n - tremolo bar Release down
S - shift slide
s - legato slide
/ -  slide into from below or out of upwards
\ -  slide into from above or out of downwards
~ - vibrato
W - wide vibrato
tr - tril'
TP - tremolo picking
T - tapping
S - slap
P - pop